ISO-10303-21;
HEADER;
/* Generated by software containing ST-Developer
 * from STEP Tools, Inc. (www.steptools.com) 
 */

FILE_DESCRIPTION(
/* description */ (''),
/* implementation_level */ '2;1');

FILE_NAME(
/* name */ 'Pratze',
/* time_stamp */ '2024-10-31T19:15:09+01:00',
/* author */ (''),
/* organization */ ('Focke & Co'),
/* preprocessor_version */ 'ST-DEVELOPER v19.4',
/* originating_system */ 'Solid Edge',
/* authorisation */ 'Unknown');

FILE_SCHEMA (('AUTOMOTIVE_DESIGN {1 0 10303 214 3 1 1}'));
ENDSEC;

DATA;
#10=PROPERTY_DEFINITION_REPRESENTATION(#14,#12);
#11=PROPERTY_DEFINITION_REPRESENTATION(#15,#13);
#12=REPRESENTATION('',(#16),#523);
#13=REPRESENTATION('',(#17),#523);
#14=PROPERTY_DEFINITION('pmi validation property','',#528);
#15=PROPERTY_DEFINITION('pmi validation property','',#528);
#16=VALUE_REPRESENTATION_ITEM('number of annotations',COUNT_MEASURE(0.));
#17=VALUE_REPRESENTATION_ITEM('number of views',COUNT_MEASURE(0.));
#18=SHAPE_REPRESENTATION_RELATIONSHIP('','',#335,#19);
#19=ADVANCED_BREP_SHAPE_REPRESENTATION('',(#333),#523);
#20=CYLINDRICAL_SURFACE('',#352,2.1);
#21=CIRCLE('',#343,2.1);
#22=CIRCLE('',#351,2.1);
#23=ORIENTED_EDGE('',*,*,#103,.T.);
#24=ORIENTED_EDGE('',*,*,#104,.T.);
#25=ORIENTED_EDGE('',*,*,#105,.F.);
#26=ORIENTED_EDGE('',*,*,#106,.T.);
#27=ORIENTED_EDGE('',*,*,#107,.T.);
#28=ORIENTED_EDGE('',*,*,#108,.T.);
#29=ORIENTED_EDGE('',*,*,#103,.F.);
#30=ORIENTED_EDGE('',*,*,#109,.T.);
#31=ORIENTED_EDGE('',*,*,#110,.T.);
#32=ORIENTED_EDGE('',*,*,#111,.T.);
#33=ORIENTED_EDGE('',*,*,#107,.F.);
#34=ORIENTED_EDGE('',*,*,#112,.T.);
#35=ORIENTED_EDGE('',*,*,#105,.T.);
#36=ORIENTED_EDGE('',*,*,#113,.T.);
#37=ORIENTED_EDGE('',*,*,#110,.F.);
#38=ORIENTED_EDGE('',*,*,#114,.T.);
#39=ORIENTED_EDGE('',*,*,#115,.F.);
#40=ORIENTED_EDGE('',*,*,#116,.F.);
#41=ORIENTED_EDGE('',*,*,#117,.F.);
#42=ORIENTED_EDGE('',*,*,#118,.F.);
#43=ORIENTED_EDGE('',*,*,#119,.F.);
#44=ORIENTED_EDGE('',*,*,#120,.F.);
#45=ORIENTED_EDGE('',*,*,#106,.F.);
#46=ORIENTED_EDGE('',*,*,#114,.F.);
#47=ORIENTED_EDGE('',*,*,#112,.F.);
#48=ORIENTED_EDGE('',*,*,#109,.F.);
#49=ORIENTED_EDGE('',*,*,#121,.T.);
#50=ORIENTED_EDGE('',*,*,#122,.T.);
#51=ORIENTED_EDGE('',*,*,#123,.T.);
#52=ORIENTED_EDGE('',*,*,#124,.T.);
#53=ORIENTED_EDGE('',*,*,#125,.F.);
#54=ORIENTED_EDGE('',*,*,#116,.T.);
#55=ORIENTED_EDGE('',*,*,#126,.F.);
#56=ORIENTED_EDGE('',*,*,#127,.F.);
#57=ORIENTED_EDGE('',*,*,#128,.T.);
#58=ORIENTED_EDGE('',*,*,#115,.T.);
#59=ORIENTED_EDGE('',*,*,#129,.F.);
#60=ORIENTED_EDGE('',*,*,#130,.F.);
#61=ORIENTED_EDGE('',*,*,#126,.T.);
#62=ORIENTED_EDGE('',*,*,#120,.T.);
#63=ORIENTED_EDGE('',*,*,#131,.F.);
#64=ORIENTED_EDGE('',*,*,#132,.F.);
#65=ORIENTED_EDGE('',*,*,#129,.T.);
#66=ORIENTED_EDGE('',*,*,#119,.T.);
#67=ORIENTED_EDGE('',*,*,#133,.F.);
#68=ORIENTED_EDGE('',*,*,#134,.F.);
#69=ORIENTED_EDGE('',*,*,#131,.T.);
#70=ORIENTED_EDGE('',*,*,#118,.T.);
#71=ORIENTED_EDGE('',*,*,#135,.F.);
#72=ORIENTED_EDGE('',*,*,#136,.F.);
#73=ORIENTED_EDGE('',*,*,#133,.T.);
#74=ORIENTED_EDGE('',*,*,#117,.T.);
#75=ORIENTED_EDGE('',*,*,#128,.F.);
#76=ORIENTED_EDGE('',*,*,#137,.F.);
#77=ORIENTED_EDGE('',*,*,#135,.T.);
#78=ORIENTED_EDGE('',*,*,#138,.F.);
#79=ORIENTED_EDGE('',*,*,#127,.T.);
#80=ORIENTED_EDGE('',*,*,#130,.T.);
#81=ORIENTED_EDGE('',*,*,#132,.T.);
#82=ORIENTED_EDGE('',*,*,#134,.T.);
#83=ORIENTED_EDGE('',*,*,#136,.T.);
#84=ORIENTED_EDGE('',*,*,#137,.T.);
#85=ORIENTED_EDGE('',*,*,#138,.T.);
#86=ORIENTED_EDGE('',*,*,#125,.T.);
#87=ORIENTED_EDGE('',*,*,#139,.F.);
#88=ORIENTED_EDGE('',*,*,#104,.F.);
#89=ORIENTED_EDGE('',*,*,#140,.F.);
#90=ORIENTED_EDGE('',*,*,#124,.F.);
#91=ORIENTED_EDGE('',*,*,#140,.T.);
#92=ORIENTED_EDGE('',*,*,#108,.F.);
#93=ORIENTED_EDGE('',*,*,#141,.F.);
#94=ORIENTED_EDGE('',*,*,#121,.F.);
#95=ORIENTED_EDGE('',*,*,#139,.T.);
#96=ORIENTED_EDGE('',*,*,#123,.F.);
#97=ORIENTED_EDGE('',*,*,#142,.F.);
#98=ORIENTED_EDGE('',*,*,#113,.F.);
#99=ORIENTED_EDGE('',*,*,#141,.T.);
#100=ORIENTED_EDGE('',*,*,#111,.F.);
#101=ORIENTED_EDGE('',*,*,#142,.T.);
#102=ORIENTED_EDGE('',*,*,#122,.F.);
#103=EDGE_CURVE('',#143,#144,#169,.T.);
#104=EDGE_CURVE('',#144,#145,#170,.T.);
#105=EDGE_CURVE('',#146,#145,#171,.T.);
#106=EDGE_CURVE('',#146,#143,#172,.T.);
#107=EDGE_CURVE('',#147,#148,#173,.T.);
#108=EDGE_CURVE('',#148,#144,#174,.T.);
#109=EDGE_CURVE('',#143,#147,#175,.T.);
#110=EDGE_CURVE('',#149,#150,#176,.T.);
#111=EDGE_CURVE('',#150,#148,#177,.T.);
#112=EDGE_CURVE('',#147,#149,#178,.T.);
#113=EDGE_CURVE('',#145,#150,#179,.T.);
#114=EDGE_CURVE('',#149,#146,#180,.T.);
#115=EDGE_CURVE('',#151,#152,#181,.T.);
#116=EDGE_CURVE('',#153,#151,#182,.T.);
#117=EDGE_CURVE('',#154,#153,#183,.T.);
#118=EDGE_CURVE('',#155,#154,#184,.T.);
#119=EDGE_CURVE('',#156,#155,#185,.T.);
#120=EDGE_CURVE('',#152,#156,#186,.T.);
#121=EDGE_CURVE('',#157,#158,#187,.T.);
#122=EDGE_CURVE('',#158,#159,#188,.T.);
#123=EDGE_CURVE('',#159,#160,#189,.T.);
#124=EDGE_CURVE('',#160,#157,#190,.T.);
#125=EDGE_CURVE('',#161,#161,#21,.T.);
#126=EDGE_CURVE('',#162,#151,#191,.T.);
#127=EDGE_CURVE('',#163,#162,#192,.T.);
#128=EDGE_CURVE('',#163,#153,#193,.T.);
#129=EDGE_CURVE('',#164,#152,#194,.T.);
#130=EDGE_CURVE('',#162,#164,#195,.T.);
#131=EDGE_CURVE('',#165,#156,#196,.T.);
#132=EDGE_CURVE('',#164,#165,#197,.T.);
#133=EDGE_CURVE('',#166,#155,#198,.T.);
#134=EDGE_CURVE('',#165,#166,#199,.T.);
#135=EDGE_CURVE('',#167,#154,#200,.T.);
#136=EDGE_CURVE('',#166,#167,#201,.T.);
#137=EDGE_CURVE('',#167,#163,#202,.T.);
#138=EDGE_CURVE('',#168,#168,#22,.T.);
#139=EDGE_CURVE('',#145,#160,#203,.T.);
#140=EDGE_CURVE('',#157,#144,#204,.F.);
#141=EDGE_CURVE('',#158,#148,#205,.F.);
#142=EDGE_CURVE('',#150,#159,#206,.F.);
#143=VERTEX_POINT('',#440);
#144=VERTEX_POINT('',#441);
#145=VERTEX_POINT('',#443);
#146=VERTEX_POINT('',#445);
#147=VERTEX_POINT('',#449);
#148=VERTEX_POINT('',#450);
#149=VERTEX_POINT('',#455);
#150=VERTEX_POINT('',#456);
#151=VERTEX_POINT('',#464);
#152=VERTEX_POINT('',#465);
#153=VERTEX_POINT('',#467);
#154=VERTEX_POINT('',#469);
#155=VERTEX_POINT('',#471);
#156=VERTEX_POINT('',#473);
#157=VERTEX_POINT('',#477);
#158=VERTEX_POINT('',#478);
#159=VERTEX_POINT('',#480);
#160=VERTEX_POINT('',#482);
#161=VERTEX_POINT('',#485);
#162=VERTEX_POINT('',#488);
#163=VERTEX_POINT('',#490);
#164=VERTEX_POINT('',#494);
#165=VERTEX_POINT('',#498);
#166=VERTEX_POINT('',#502);
#167=VERTEX_POINT('',#506);
#168=VERTEX_POINT('',#512);
#169=LINE('',#439,#207);
#170=LINE('',#442,#208);
#171=LINE('',#444,#209);
#172=LINE('',#446,#210);
#173=LINE('',#448,#211);
#174=LINE('',#451,#212);
#175=LINE('',#452,#213);
#176=LINE('',#454,#214);
#177=LINE('',#457,#215);
#178=LINE('',#458,#216);
#179=LINE('',#460,#217);
#180=LINE('',#461,#218);
#181=LINE('',#463,#219);
#182=LINE('',#466,#220);
#183=LINE('',#468,#221);
#184=LINE('',#470,#222);
#185=LINE('',#472,#223);
#186=LINE('',#474,#224);
#187=LINE('',#476,#225);
#188=LINE('',#479,#226);
#189=LINE('',#481,#227);
#190=LINE('',#483,#228);
#191=LINE('',#487,#229);
#192=LINE('',#489,#230);
#193=LINE('',#491,#231);
#194=LINE('',#493,#232);
#195=LINE('',#495,#233);
#196=LINE('',#497,#234);
#197=LINE('',#499,#235);
#198=LINE('',#501,#236);
#199=LINE('',#503,#237);
#200=LINE('',#505,#238);
#201=LINE('',#507,#239);
#202=LINE('',#509,#240);
#203=LINE('',#515,#241);
#204=LINE('',#516,#242);
#205=LINE('',#518,#243);
#206=LINE('',#520,#244);
#207=VECTOR('',#361,1000.);
#208=VECTOR('',#362,1000.);
#209=VECTOR('',#363,1000.);
#210=VECTOR('',#364,1000.);
#211=VECTOR('',#367,1000.);
#212=VECTOR('',#368,1000.);
#213=VECTOR('',#369,1000.);
#214=VECTOR('',#372,1000.);
#215=VECTOR('',#373,1000.);
#216=VECTOR('',#374,1000.);
#217=VECTOR('',#377,1000.);
#218=VECTOR('',#378,1000.);
#219=VECTOR('',#381,1000.);
#220=VECTOR('',#382,1000.);
#221=VECTOR('',#383,1000.);
#222=VECTOR('',#384,1000.);
#223=VECTOR('',#385,1000.);
#224=VECTOR('',#386,1000.);
#225=VECTOR('',#389,1000.);
#226=VECTOR('',#390,1000.);
#227=VECTOR('',#391,1000.);
#228=VECTOR('',#392,1000.);
#229=VECTOR('',#397,1000.);
#230=VECTOR('',#398,1000.);
#231=VECTOR('',#399,1000.);
#232=VECTOR('',#402,1000.);
#233=VECTOR('',#403,1000.);
#234=VECTOR('',#406,1000.);
#235=VECTOR('',#407,1000.);
#236=VECTOR('',#410,1000.);
#237=VECTOR('',#411,1000.);
#238=VECTOR('',#414,1000.);
#239=VECTOR('',#415,1000.);
#240=VECTOR('',#418,1000.);
#241=VECTOR('',#427,1000.);
#242=VECTOR('',#428,1000.);
#243=VECTOR('',#431,1000.);
#244=VECTOR('',#434,1000.);
#245=EDGE_LOOP('',(#23,#24,#25,#26));
#246=EDGE_LOOP('',(#27,#28,#29,#30));
#247=EDGE_LOOP('',(#31,#32,#33,#34));
#248=EDGE_LOOP('',(#35,#36,#37,#38));
#249=EDGE_LOOP('',(#39,#40,#41,#42,#43,#44));
#250=EDGE_LOOP('',(#45,#46,#47,#48));
#251=EDGE_LOOP('',(#49,#50,#51,#52));
#252=EDGE_LOOP('',(#53));
#253=EDGE_LOOP('',(#54,#55,#56,#57));
#254=EDGE_LOOP('',(#58,#59,#60,#61));
#255=EDGE_LOOP('',(#62,#63,#64,#65));
#256=EDGE_LOOP('',(#66,#67,#68,#69));
#257=EDGE_LOOP('',(#70,#71,#72,#73));
#258=EDGE_LOOP('',(#74,#75,#76,#77));
#259=EDGE_LOOP('',(#78));
#260=EDGE_LOOP('',(#79,#80,#81,#82,#83,#84));
#261=EDGE_LOOP('',(#85));
#262=EDGE_LOOP('',(#86));
#263=EDGE_LOOP('',(#87,#88,#89,#90));
#264=EDGE_LOOP('',(#91,#92,#93,#94));
#265=EDGE_LOOP('',(#95,#96,#97,#98));
#266=EDGE_LOOP('',(#99,#100,#101,#102));
#267=FACE_BOUND('',#245,.T.);
#268=FACE_BOUND('',#246,.T.);
#269=FACE_BOUND('',#247,.T.);
#270=FACE_BOUND('',#248,.T.);
#271=FACE_BOUND('',#249,.T.);
#272=FACE_BOUND('',#250,.T.);
#273=FACE_BOUND('',#251,.T.);
#274=FACE_BOUND('',#252,.T.);
#275=FACE_BOUND('',#253,.T.);
#276=FACE_BOUND('',#254,.T.);
#277=FACE_BOUND('',#255,.T.);
#278=FACE_BOUND('',#256,.T.);
#279=FACE_BOUND('',#257,.T.);
#280=FACE_BOUND('',#258,.T.);
#281=FACE_BOUND('',#259,.T.);
#282=FACE_BOUND('',#260,.T.);
#283=FACE_BOUND('',#261,.T.);
#284=FACE_BOUND('',#262,.T.);
#285=FACE_BOUND('',#263,.T.);
#286=FACE_BOUND('',#264,.T.);
#287=FACE_BOUND('',#265,.T.);
#288=FACE_BOUND('',#266,.T.);
#289=PLANE('',#337);
#290=PLANE('',#338);
#291=PLANE('',#339);
#292=PLANE('',#340);
#293=PLANE('',#341);
#294=PLANE('',#342);
#295=PLANE('',#344);
#296=PLANE('',#345);
#297=PLANE('',#346);
#298=PLANE('',#347);
#299=PLANE('',#348);
#300=PLANE('',#349);
#301=PLANE('',#350);
#302=PLANE('',#353);
#303=PLANE('',#354);
#304=PLANE('',#355);
#305=PLANE('',#356);
#306=ADVANCED_FACE('',(#267),#289,.T.);
#307=ADVANCED_FACE('',(#268),#290,.T.);
#308=ADVANCED_FACE('',(#269),#291,.T.);
#309=ADVANCED_FACE('',(#270),#292,.T.);
#310=ADVANCED_FACE('',(#271,#272),#293,.F.);
#311=ADVANCED_FACE('',(#273,#274),#294,.T.);
#312=ADVANCED_FACE('',(#275),#295,.F.);
#313=ADVANCED_FACE('',(#276),#296,.F.);
#314=ADVANCED_FACE('',(#277),#297,.F.);
#315=ADVANCED_FACE('',(#278),#298,.F.);
#316=ADVANCED_FACE('',(#279),#299,.F.);
#317=ADVANCED_FACE('',(#280),#300,.F.);
#318=ADVANCED_FACE('',(#281,#282),#301,.T.);
#319=ADVANCED_FACE('',(#283,#284),#20,.F.);
#320=ADVANCED_FACE('',(#285),#302,.F.);
#321=ADVANCED_FACE('',(#286),#303,.F.);
#322=ADVANCED_FACE('',(#287),#304,.F.);
#323=ADVANCED_FACE('',(#288),#305,.F.);
#324=CLOSED_SHELL('',(#306,#307,#308,#309,#310,#311,#312,#313,#314,#315,
#316,#317,#318,#319,#320,#321,#322,#323));
#325=STYLED_ITEM('',(#326),#333);
#326=PRESENTATION_STYLE_ASSIGNMENT((#327));
#327=SURFACE_STYLE_USAGE(.BOTH.,#328);
#328=SURFACE_SIDE_STYLE('',(#329));
#329=SURFACE_STYLE_FILL_AREA(#330);
#330=FILL_AREA_STYLE('',(#331));
#331=FILL_AREA_STYLE_COLOUR('',#332);
#332=COLOUR_RGB('',0.75,0.75,0.75);
#333=MANIFOLD_SOLID_BREP('',#324);
#334=SHAPE_DEFINITION_REPRESENTATION(#528,#335);
#335=SHAPE_REPRESENTATION('Pratze',(#336),#523);
#336=AXIS2_PLACEMENT_3D('',#437,#357,#358);
#337=AXIS2_PLACEMENT_3D('',#438,#359,#360);
#338=AXIS2_PLACEMENT_3D('',#447,#365,#366);
#339=AXIS2_PLACEMENT_3D('',#453,#370,#371);
#340=AXIS2_PLACEMENT_3D('',#459,#375,#376);
#341=AXIS2_PLACEMENT_3D('',#462,#379,#380);
#342=AXIS2_PLACEMENT_3D('',#475,#387,#388);
#343=AXIS2_PLACEMENT_3D('',#484,#393,#394);
#344=AXIS2_PLACEMENT_3D('',#486,#395,#396);
#345=AXIS2_PLACEMENT_3D('',#492,#400,#401);
#346=AXIS2_PLACEMENT_3D('',#496,#404,#405);
#347=AXIS2_PLACEMENT_3D('',#500,#408,#409);
#348=AXIS2_PLACEMENT_3D('',#504,#412,#413);
#349=AXIS2_PLACEMENT_3D('',#508,#416,#417);
#350=AXIS2_PLACEMENT_3D('',#510,#419,#420);
#351=AXIS2_PLACEMENT_3D('',#511,#421,#422);
#352=AXIS2_PLACEMENT_3D('',#513,#423,#424);
#353=AXIS2_PLACEMENT_3D('',#514,#425,#426);
#354=AXIS2_PLACEMENT_3D('',#517,#429,#430);
#355=AXIS2_PLACEMENT_3D('',#519,#432,#433);
#356=AXIS2_PLACEMENT_3D('',#521,#435,#436);
#357=DIRECTION('',(0.,0.,1.));
#358=DIRECTION('',(1.,0.,0.));
#359=DIRECTION('',(-1.,0.,0.));
#360=DIRECTION('',(0.,0.,1.));
#361=DIRECTION('',(0.,-1.,0.));
#362=DIRECTION('',(0.,0.,1.));
#363=DIRECTION('',(0.,-1.,0.));
#364=DIRECTION('',(0.,0.,-1.));
#365=DIRECTION('',(0.,0.,-1.));
#366=DIRECTION('',(-1.,0.,0.));
#367=DIRECTION('',(0.,-1.,0.));
#368=DIRECTION('',(-1.,0.,0.));
#369=DIRECTION('',(1.,0.,0.));
#370=DIRECTION('',(1.,0.,0.));
#371=DIRECTION('',(0.,0.,-1.));
#372=DIRECTION('',(0.,-1.,0.));
#373=DIRECTION('',(0.,0.,-1.));
#374=DIRECTION('',(0.,0.,1.));
#375=DIRECTION('',(0.,0.,1.));
#376=DIRECTION('',(1.,0.,0.));
#377=DIRECTION('',(1.,0.,0.));
#378=DIRECTION('',(-1.,0.,0.));
#379=DIRECTION('',(0.,-1.,0.));
#380=DIRECTION('',(0.,0.,-1.));
#381=DIRECTION('',(-0.499999999999998,0.,0.86602540378444));
#382=DIRECTION('',(-1.,0.,3.21924556872248E-15));
#383=DIRECTION('',(-0.500000000000002,0.,-0.866025403784437));
#384=DIRECTION('',(0.499999999999998,0.,-0.86602540378444));
#385=DIRECTION('',(1.,0.,-1.28769822748899E-15));
#386=DIRECTION('',(0.5,0.,0.866025403784438));
#387=DIRECTION('',(0.,-1.,0.));
#388=DIRECTION('',(0.,0.,-1.));
#389=DIRECTION('',(1.,0.,0.));
#390=DIRECTION('',(0.,0.,1.));
#391=DIRECTION('',(-1.,0.,0.));
#392=DIRECTION('',(0.,0.,-1.));
#393=DIRECTION('',(0.,-1.,0.));
#394=DIRECTION('',(0.,0.,-1.));
#395=DIRECTION('',(-3.21924556872248E-15,0.,-1.));
#396=DIRECTION('',(-1.,0.,3.21924556872248E-15));
#397=DIRECTION('',(0.,1.,0.));
#398=DIRECTION('',(-1.,0.,3.21924556872248E-15));
#399=DIRECTION('',(0.,1.,0.));
#400=DIRECTION('',(-0.86602540378444,0.,-0.499999999999998));
#401=DIRECTION('',(-0.499999999999998,0.,0.86602540378444));
#402=DIRECTION('',(0.,1.,0.));
#403=DIRECTION('',(-0.499999999999998,0.,0.86602540378444));
#404=DIRECTION('',(-0.866025403784438,0.,0.5));
#405=DIRECTION('',(0.5,0.,0.866025403784438));
#406=DIRECTION('',(0.,1.,0.));
#407=DIRECTION('',(0.5,0.,0.866025403784438));
#408=DIRECTION('',(1.28769822748899E-15,0.,1.));
#409=DIRECTION('',(1.,0.,-1.28769822748899E-15));
#410=DIRECTION('',(0.,1.,0.));
#411=DIRECTION('',(1.,0.,-1.28769822748899E-15));
#412=DIRECTION('',(0.86602540378444,0.,0.499999999999998));
#413=DIRECTION('',(0.499999999999998,0.,-0.86602540378444));
#414=DIRECTION('',(0.,1.,0.));
#415=DIRECTION('',(0.499999999999998,0.,-0.86602540378444));
#416=DIRECTION('',(0.866025403784437,0.,-0.500000000000002));
#417=DIRECTION('',(-0.500000000000002,0.,-0.866025403784437));
#418=DIRECTION('',(-0.500000000000002,0.,-0.866025403784437));
#419=DIRECTION('',(0.,1.,0.));
#420=DIRECTION('',(0.,0.,1.));
#421=DIRECTION('',(0.,1.,0.));
#422=DIRECTION('',(0.,0.,1.));
#423=DIRECTION('',(0.,1.,0.));
#424=DIRECTION('',(0.,0.,1.));
#425=DIRECTION('',(0.707106781186548,0.707106781186548,0.));
#426=DIRECTION('',(0.,0.,-1.));
#427=DIRECTION('',(0.577350269189626,-0.577350269189626,-0.577350269189626));
#428=DIRECTION('',(0.577350269189626,-0.577350269189626,0.577350269189626));
#429=DIRECTION('',(0.,0.707106781186548,0.707106781186548));
#430=DIRECTION('',(1.,0.,0.));
#431=DIRECTION('',(-0.577350269189626,-0.577350269189626,0.577350269189626));
#432=DIRECTION('',(0.,0.707106781186548,-0.707106781186548));
#433=DIRECTION('',(-1.,0.,0.));
#434=DIRECTION('',(0.577350269189626,0.577350269189626,0.577350269189626));
#435=DIRECTION('',(-0.707106781186548,0.707106781186548,0.));
#436=DIRECTION('',(0.,0.,1.));
#437=CARTESIAN_POINT('',(0.,0.,0.));
#438=CARTESIAN_POINT('',(-13.,7.,7.));
#439=CARTESIAN_POINT('',(-13.,7.,-7.));
#440=CARTESIAN_POINT('',(-13.,7.,-7.));
#441=CARTESIAN_POINT('',(-13.,2.,-7.));
#442=CARTESIAN_POINT('',(-13.,2.,7.));
#443=CARTESIAN_POINT('',(-13.,2.,7.));
#444=CARTESIAN_POINT('',(-13.,7.,7.));
#445=CARTESIAN_POINT('',(-13.,7.,7.));
#446=CARTESIAN_POINT('',(-13.,7.,7.));
#447=CARTESIAN_POINT('',(-13.,7.,-7.));
#448=CARTESIAN_POINT('',(13.,7.,-7.));
#449=CARTESIAN_POINT('',(13.,7.,-7.));
#450=CARTESIAN_POINT('',(13.,2.,-7.));
#451=CARTESIAN_POINT('',(-13.,2.,-7.));
#452=CARTESIAN_POINT('',(-13.,7.,-7.));
#453=CARTESIAN_POINT('',(13.,7.,-7.));
#454=CARTESIAN_POINT('',(13.,7.,7.));
#455=CARTESIAN_POINT('',(13.,7.,7.));
#456=CARTESIAN_POINT('',(13.,2.,7.));
#457=CARTESIAN_POINT('',(13.,2.,-7.));
#458=CARTESIAN_POINT('',(13.,7.,-7.));
#459=CARTESIAN_POINT('',(13.,7.,7.));
#460=CARTESIAN_POINT('',(13.,2.,7.));
#461=CARTESIAN_POINT('',(13.,7.,7.));
#462=CARTESIAN_POINT('',(0.,7.,0.));
#463=CARTESIAN_POINT('',(-2.0207259421637,7.,-3.49999999999999));
#464=CARTESIAN_POINT('',(-2.0207259421637,7.,-3.49999999999999));
#465=CARTESIAN_POINT('',(-4.04145188432738,7.,2.16840434497101E-15));
#466=CARTESIAN_POINT('',(2.02072594216368,7.,-3.5));
#467=CARTESIAN_POINT('',(2.02072594216368,7.,-3.5));
#468=CARTESIAN_POINT('',(4.04145188432738,7.,-9.32413868337534E-15));
#469=CARTESIAN_POINT('',(4.04145188432738,7.,-1.01915004213637E-14));
#470=CARTESIAN_POINT('',(2.02072594216369,7.,3.49999999999999));
#471=CARTESIAN_POINT('',(2.02072594216369,7.,3.5));
#472=CARTESIAN_POINT('',(-2.02072594216369,7.,3.5));
#473=CARTESIAN_POINT('',(-2.02072594216369,7.,3.5));
#474=CARTESIAN_POINT('',(-4.04145188432738,7.,1.0842021724855E-15));
#475=CARTESIAN_POINT('',(0.,0.,0.));
#476=CARTESIAN_POINT('',(0.,0.,-5.));
#477=CARTESIAN_POINT('',(-11.,0.,-5.));
#478=CARTESIAN_POINT('',(11.,0.,-5.));
#479=CARTESIAN_POINT('',(11.,0.,0.));
#480=CARTESIAN_POINT('',(11.,0.,5.));
#481=CARTESIAN_POINT('',(0.,0.,5.));
#482=CARTESIAN_POINT('',(-11.,0.,5.));
#483=CARTESIAN_POINT('',(-11.,0.,0.));
#484=CARTESIAN_POINT('',(0.,0.,0.));
#485=CARTESIAN_POINT('',(0.,0.,-2.1));
#486=CARTESIAN_POINT('',(2.02072594216368,3.8,-3.5));
#487=CARTESIAN_POINT('',(-2.0207259421637,3.8,-3.49999999999999));
#488=CARTESIAN_POINT('',(-2.0207259421637,3.8,-3.49999999999999));
#489=CARTESIAN_POINT('',(2.02072594216368,3.8,-3.5));
#490=CARTESIAN_POINT('',(2.02072594216368,3.8,-3.5));
#491=CARTESIAN_POINT('',(2.02072594216368,3.8,-3.5));
#492=CARTESIAN_POINT('',(-2.0207259421637,3.8,-3.49999999999999));
#493=CARTESIAN_POINT('',(-4.04145188432738,3.8,2.16840434497101E-15));
#494=CARTESIAN_POINT('',(-4.04145188432738,3.8,2.16840434497101E-15));
#495=CARTESIAN_POINT('',(-2.0207259421637,3.8,-3.49999999999999));
#496=CARTESIAN_POINT('',(-4.04145188432738,3.8,1.0842021724855E-15));
#497=CARTESIAN_POINT('',(-2.02072594216369,3.8,3.5));
#498=CARTESIAN_POINT('',(-2.02072594216369,3.8,3.5));
#499=CARTESIAN_POINT('',(-4.04145188432738,3.8,1.0842021724855E-15));
#500=CARTESIAN_POINT('',(-2.02072594216369,3.8,3.5));
#501=CARTESIAN_POINT('',(2.02072594216369,3.8,3.5));
#502=CARTESIAN_POINT('',(2.02072594216369,3.8,3.5));
#503=CARTESIAN_POINT('',(-2.02072594216369,3.8,3.5));
#504=CARTESIAN_POINT('',(2.02072594216369,3.8,3.49999999999999));
#505=CARTESIAN_POINT('',(4.04145188432738,3.8,-9.97465998686664E-15));
#506=CARTESIAN_POINT('',(4.04145188432738,3.8,-9.97465998686664E-15));
#507=CARTESIAN_POINT('',(2.02072594216369,3.8,3.49999999999999));
#508=CARTESIAN_POINT('',(4.04145188432738,3.8,-9.32413868337534E-15));
#509=CARTESIAN_POINT('',(4.04145188432738,3.8,-9.32413868337534E-15));
#510=CARTESIAN_POINT('',(0.,3.8,0.));
#511=CARTESIAN_POINT('',(0.,3.8,0.));
#512=CARTESIAN_POINT('',(0.,3.8,2.1));
#513=CARTESIAN_POINT('',(0.,-23.347981810987,0.));
#514=CARTESIAN_POINT('',(-11.,0.,0.));
#515=CARTESIAN_POINT('',(-7.33333333333333,-3.66666666666667,1.33333333333333));
#516=CARTESIAN_POINT('',(-9.33333333333333,-1.66666666666667,-3.33333333333333));
#517=CARTESIAN_POINT('',(0.,0.,-5.));
#518=CARTESIAN_POINT('',(7.33333333333333,-3.66666666666666,-1.33333333333334));
#519=CARTESIAN_POINT('',(0.,0.,5.));
#520=CARTESIAN_POINT('',(7.33333333333333,-3.66666666666666,1.33333333333334));
#521=CARTESIAN_POINT('',(11.,0.,0.));
#522=MECHANICAL_DESIGN_GEOMETRIC_PRESENTATION_REPRESENTATION('',(#325),
#523);
#523=(
GEOMETRIC_REPRESENTATION_CONTEXT(3)
GLOBAL_UNCERTAINTY_ASSIGNED_CONTEXT((#524))
GLOBAL_UNIT_ASSIGNED_CONTEXT((#527,#526,#525))
REPRESENTATION_CONTEXT('Pratze','TOP_LEVEL_ASSEMBLY_PART')
);
#524=UNCERTAINTY_MEASURE_WITH_UNIT(LENGTH_MEASURE(0.005),#527,
'DISTANCE_ACCURACY_VALUE','Maximum Tolerance applied to model');
#525=(
NAMED_UNIT(*)
SI_UNIT($,.STERADIAN.)
SOLID_ANGLE_UNIT()
);
#526=(
NAMED_UNIT(*)
PLANE_ANGLE_UNIT()
SI_UNIT($,.RADIAN.)
);
#527=(
LENGTH_UNIT()
NAMED_UNIT(*)
SI_UNIT(.MILLI.,.METRE.)
);
#528=PRODUCT_DEFINITION_SHAPE('','',#529);
#529=PRODUCT_DEFINITION('','',#531,#530);
#530=PRODUCT_DEFINITION_CONTEXT('',#537,'design');
#531=PRODUCT_DEFINITION_FORMATION_WITH_SPECIFIED_SOURCE('','',#533,
 .NOT_KNOWN.);
#532=PRODUCT_RELATED_PRODUCT_CATEGORY('','',(#533));
#533=PRODUCT('Pratze','Pratze','Pratze',(#535));
#534=PRODUCT_CATEGORY('','');
#535=PRODUCT_CONTEXT('',#537,'mechanical');
#536=APPLICATION_PROTOCOL_DEFINITION('international standard',
'automotive_design',2010,#537);
#537=APPLICATION_CONTEXT(
'core data for automotive mechanical design processes');
ENDSEC;
END-ISO-10303-21;
